  0
SECTION
  2
HEADER
  9
$ACADVER
  1
AC1015
  9
$ACADMAINTVER
 70
     6
  9
$DWGCODEPAGE
  3
ANSI_1254
  9
$INSBASE
 10
0.0
 20
0.0
 30
0.0
  9
$EXTMIN
 10
0.0
 20
0.0
 30
0.0
  9
$EXTMAX
 10
279.4
 20
215.9
 30
0.0
  9
$LIMMIN
 10
0.0
 20
0.0
  9
$LIMMAX
 10
279.4
 20
215.9
  9
$ORTHOMODE
 70
     0
  9
$REGENMODE
 70
     1
  9
$FILLMODE
 70
     1
  9
$QTEXTMODE
 70
     0
  9
$MIRRTEXT
 70
     1
  9
$LTSCALE
 40
1.0
  9
$ATTMODE
 70
     1
  9
$TEXTSIZE
 40
3.5
  9
$TRACEWID
 40
1.0
  9
$TEXTSTYLE
  7
Standard
  9
$CLAYER
  8
0
  9
$CELTYPE
  6
ByLayer
  9
$CECOLOR
 62
   256
  9
$CELTSCALE
 40
1.0
  9
$DISPSILH
 70
     0
  9
$DIMSCALE
 40
1.0
  9
$DIMASZ
 40
3.5
  9
$DIMEXO
 40
1.0
  9
$DIMDLI
 40
3.75
  9
$DIMRND
 40
0.0
  9
$DIMDLE
 40
0.0
  9
$DIMEXE
 40
1.0
  9
$DIMTP
 40
0.0
  9
$DIMTM
 40
0.0
  9
$DIMTXT
 40
3.5
  9
$DIMCEN
 40
2.5
  9
$DIMTSZ
 40
0.0
  9
$DIMTOL
 70
     0
  9
$DIMLIM
 70
     0
  9
$DIMTIH
 70
     1
  9
$DIMTOH
 70
     1
  9
$DIMSE1
 70
     0
  9
$DIMSE2
 70
     0
  9
$DIMTAD
 70
     1
  9
$DIMZIN
 70
     0
  9
$DIMBLK
  1

  9
$DIMASO
 70
     1
  9
$DIMSHO
 70
     1
  9
$DIMPOST
  1

  9
$DIMAPOST
  1

  9
$DIMALT
 70
     0
  9
$DIMALTD
 70
     3
  9
$DIMALTF
 40
0.0393700787
  9
$DIMLFAC
 40
1.0
  9
$DIMTOFL
 70
     1
  9
$DIMTVP
 40
0.0
  9
$DIMTIX
 70
     0
  9
$DIMSOXD
 70
     0
  9
$DIMSAH
 70
     0
  9
$DIMBLK1
  1

  9
$DIMBLK2
  1

  9
$DIMSTYLE
  2
ISO-25
  9
$DIMCLRD
 70
     0
  9
$DIMCLRE
 70
     0
  9
$DIMCLRT
 70
     0
  9
$DIMTFAC
 40
1.0
  9
$DIMGAP
 40
1.524
  9
$DIMJUST
 70
     0
  9
$DIMSD1
 70
     0
  9
$DIMSD2
 70
     0
  9
$DIMTOLJ
 70
     0
  9
$DIMTZIN
 70
     0
  9
$DIMALTZ
 70
     0
  9
$DIMALTTZ
 70
     0
  9
$DIMUPT
 70
     0
  9
$DIMDEC
 70
     2
  9
$DIMTDEC
 70
     2
  9
$DIMALTU
 70
     2
  9
$DIMALTTD
 70
     3
  9
$DIMTXSTY
  7
Standard
  9
$DIMAUNIT
 70
     0
  9
$DIMADEC
 70
     2
  9
$DIMALTRND
 40
0.0
  9
$DIMAZIN
 70
     0
  9
$DIMDSEP
 70
    44
  9
$DIMATFIT
 70
     3
  9
$DIMFRAC
 70
     0
  9
$DIMLDRBLK
  1

  9
$DIMLUNIT
 70
     2
  9
$DIMLWD
 70
    -2
  9
$DIMLWE
 70
    -2
  9
$DIMTMOVE
 70
     0
  9
$LUNITS
 70
     2
  9
$LUPREC
 70
     2
  9
$SKETCHINC
 40
1.0
  9
$FILLETRAD
 40
10.0
  9
$AUNITS
 70
     0
  9
$AUPREC
 70
     2
  9
$MENU
  1
.
  9
$ELEVATION
 40
0.0
  9
$PELEVATION
 40
0.0
  9
$THICKNESS
 40
0.0
  9
$LIMCHECK
 70
     0
  9
$CHAMFERA
 40
0.0
  9
$CHAMFERB
 40
0.0
  9
$CHAMFERC
 40
0.0
  9
$CHAMFERD
 40
0.0
  9
$SKPOLY
 70
     0
  9
$TDCREATE
 40
2458985.63319647
  9
$TDUCREATE
 40
2458985.50819647
  9
$TDUPDATE
 40
2458985.633196713
  9
$TDUUPDATE
 40
2458985.508196713
  9
$TDINDWG
 40
0.0000000116
  9
$TDUSRTIMER
 40
0.0000000116
  9
$USRTIMER
 70
     1
  9
$ANGBASE
 50
0.0
  9
$ANGDIR
 70
     0
  9
$PDMODE
 70
     0
  9
$PDSIZE
 40
-1.0
  9
$PLINEWID
 40
0.0
  9
$SPLFRAME
 70
     0
  9
$SPLINETYPE
 70
     6
  9
$SPLINESEGS
 70
     8
  9
$HANDSEED
  5
CC
  9
$SURFTAB1
 70
     6
  9
$SURFTAB2
 70
     6
  9
$SURFTYPE
 70
     6
  9
$SURFU
 70
     6
  9
$SURFV
 70
     6
  9
$UCSBASE
  2

  9
$UCSNAME
  2

  9
$UCSORG
 10
0.0
 20
0.0
 30
0.0
  9
$UCSXDIR
 10
1.0
 20
0.0
 30
0.0
  9
$UCSYDIR
 10
0.0
 20
1.0
 30
0.0
  9
$UCSORTHOREF
  2

  9
$UCSORTHOVIEW
 70
     0
  9
$UCSORGTOP
 10
0.0
 20
0.0
 30
0.0
  9
$UCSORGBOTTOM
 10
0.0
 20
0.0
 30
0.0
  9
$UCSORGLEFT
 10
0.0
 20
0.0
 30
0.0
  9
$UCSORGRIGHT
 10
0.0
 20
0.0
 30
0.0
  9
$UCSORGFRONT
 10
0.0
 20
0.0
 30
0.0
  9
$UCSORGBACK
 10
0.0
 20
0.0
 30
0.0
  9
$PUCSBASE
  2

  9
$PUCSNAME
  2

  9
$PUCSORG
 10
0.0
 20
0.0
 30
0.0
  9
$PUCSXDIR
 10
1.0
 20
0.0
 30
0.0
  9
$PUCSYDIR
 10
0.0
 20
1.0
 30
0.0
  9
$PUCSORTHOREF
  2

  9
$PUCSORTHOVIEW
 70
     0
  9
$PUCSORGTOP
 10
0.0
 20
0.0
 30
0.0
  9
$PUCSORGBOTTOM
 10
0.0
 20
0.0
 30
0.0
  9
$PUCSORGLEFT
 10
0.0
 20
0.0
 30
0.0
  9
$PUCSORGRIGHT
 10
0.0
 20
0.0
 30
0.0
  9
$PUCSORGFRONT
 10
0.0
 20
0.0
 30
0.0
  9
$PUCSORGBACK
 10
0.0
 20
0.0
 30
0.0
  9
$USERI1
 70
     0
  9
$USERI2
 70
     0
  9
$USERI3
 70
     0
  9
$USERI4
 70
     0
  9
$USERI5
 70
     0
  9
$USERR1
 40
0.0
  9
$USERR2
 40
0.0
  9
$USERR3
 40
0.0
  9
$USERR4
 40
0.0
  9
$USERR5
 40
0.0
  9
$WORLDVIEW
 70
     1
  9
$SHADEDGE
 70
     3
  9
$SHADEDIF
 70
    70
  9
$TILEMODE
 70
     1
  9
$MAXACTVP
 70
    64
  9
$PINSBASE
 10
0.0
 20
0.0
 30
0.0
  9
$PLIMCHECK
 70
     0
  9
$PEXTMIN
 10
1.0000000000E+20
 20
1.0000000000E+20
 30
1.0000000000E+20
  9
$PEXTMAX
 10
-1.0000000000E+20
 20
-1.0000000000E+20
 30
-1.0000000000E+20
  9
$PLIMMIN
 10
0.0
 20
0.0
  9
$PLIMMAX
 10
420.0
 20
297.0
  9
$UNITMODE
 70
     0
  9
$VISRETAIN
 70
     1
  9
$PLINEGEN
 70
     0
  9
$PSLTSCALE
 70
     1
  9
$TREEDEPTH
 70
  3020
  9
$CMLSTYLE
  2
Standard
  9
$CMLJUST
 70
     0
  9
$CMLSCALE
 40
20.0
  9
$PROXYGRAPHICS
 70
     1
  9
$MEASUREMENT
 70
     1
  9
$CELWEIGHT
370
    -1
  9
$ENDCAPS
280
     0
  9
$JOINSTYLE
280
     0
  9
$LWDISPLAY
290
     1
  9
$INSUNITS
 70
     4
  9
$HYPERLINKBASE
  1

  9
$STYLESHEET
  1

  9
$XEDIT
290
     1
  9
$CEPSNTYPE
380
     0
  9
$PSTYLEMODE
290
     1
  9
$FINGERPRINTGUID
  2
{ca0e99a7-d610-4752-898a-4d25d2b0140e}
  9
$VERSIONGUID
  2
{FAEB1C32-E019-11D5-929B-00C0DF256EC4}
  9
$EXTNAMES
290
     1
  9
$PSVPSCALE
 40
0.0
  9
$OLESTARTUP
290
     0
  0
ENDSEC
  0
SECTION
  2
CLASSES
  0
CLASS
  1
ACDBDICTIONARYWDFLT
  2
AcDbDictionaryWithDefault
  3
ObjectDBX Classes
 90
        0
280
     0
281
     0
  0
CLASS
  1
VISUALSTYLE
  2
AcDbVisualStyle
  3
ObjectDBX Classes
 90
     4095
280
     0
281
     0
  0
CLASS
  1
MATERIAL
  2
AcDbMaterial
  3
ObjectDBX Classes
 90
     1153
280
     0
281
     0
  0
CLASS
  1
SCALE
  2
AcDbScale
  3
ObjectDBX Classes
 90
     1153
280
     0
281
     0
  0
CLASS
  1
TABLESTYLE
  2
AcDbTableStyle
  3
ObjectDBX Classes
 90
     4095
280
     0
281
     0
  0
CLASS
  1
MLEADERSTYLE
  2
AcDbMLeaderStyle
  3
ACDB_MLEADERSTYLE_CLASS
 90
     4095
280
     0
281
     0
  0
CLASS
  1
SUN
  2
AcDbSun
  3
SCENEOE
 90
     1153
280
     0
281
     0
  0
CLASS
  1
ACDBPLACEHOLDER
  2
AcDbPlaceHolder
  3
ObjectDBX Classes
 90
        0
280
     0
281
     0
  0
CLASS
  1
LAYOUT
  2
AcDbLayout
  3
ObjectDBX Classes
 90
        0
280
     0
281
     0
  0
ENDSEC
  0
SECTION
  2
TABLES
  0
TABLE
  2
VPORT
  5
8
330
0
100
AcDbSymbolTable
 70
     1
  0
VPORT
  5
29
330
8
100
AcDbSymbolTableRecord
100
AcDbViewportTableRecord
  2
*Active
 70
     0
 10
0.0
 20
0.0
 11
1.0
 21
1.0
 12
139.7
 22
107.95
 13
0.0
 23
0.0
 14
10.0
 24
10.0
 15
10.0
 25
10.0
 16
0.0
 26
0.0
 36
1.0
 17
0.0
 27
0.0
 37
0.0
 40
215.9
 41
1.2941176471
 42
50.0
 43
0.0
 44
0.0
 50
0.0
 51
0.0
 71
     0
 72
  2000
 73
     1
 74
     3
 75
     0
 76
     0
 77
     0
 78
     0
281
     0
 65
     1
110
0.0
120
0.0
130
0.0
111
1.0
121
0.0
131
0.0
112
0.0
122
1.0
132
0.0
 79
     0
146
0.0
  0
ENDTAB
  0
TABLE
  2
LTYPE
  5
5
330
0
100
AcDbSymbolTable
 70
     6
  0
LTYPE
  5
14
330
5
100
AcDbSymbolTableRecord
100
AcDbLinetypeTableRecord
  2
ByBlock
 70
     0
  3

 72
    65
 73
     0
 40
0.0
  0
LTYPE
  5
15
330
5
100
AcDbSymbolTableRecord
100
AcDbLinetypeTableRecord
  2
ByLayer
 70
     0
  3

 72
    65
 73
     0
 40
0.0
  0
LTYPE
  5
16
330
5
100
AcDbSymbolTableRecord
100
AcDbLinetypeTableRecord
  2
Continuous
 70
     0
  3
Solid line
 72
    65
 73
     0
 40
0.0
  0
LTYPE
  5
6E
330
5
100
AcDbSymbolTableRecord
100
AcDbLinetypeTableRecord
  2
HIDDEN
 70
     0
  3
Hidden __ __ __ __ __ __ __ __ __ __ __ __ __ __
 72
    65
 73
     2
 40
1.905
 49
1.27
 74
     0
 49
-0.635
 74
     0
  0
LTYPE
  5
6F
330
5
100
AcDbSymbolTableRecord
100
AcDbLinetypeTableRecord
  2
PHANTOM
 70
     0
  3
Phantom ______  __  __  ______  __  __  ______
 72
    65
 73
     6
 40
12.7
 49
6.35
 74
     0
 49
-1.27
 74
     0
 49
1.27
 74
     0
 49
-1.27
 74
     0
 49
1.27
 74
     0
 49
-1.27
 74
     0
  0
LTYPE
  5
70
330
5
100
AcDbSymbolTableRecord
100
AcDbLinetypeTableRecord
  2
CENTER
 70
     0
  3
Center ____ _ ____ _ ____ _ ____ _ ____ _ ____
 72
    65
 73
     4
 40
10.16
 49
6.35
 74
     0
 49
-1.27
 74
     0
 49
1.27
 74
     0
 49
-1.27
 74
     0
  0
LTYPE
  5
71
330
5
100
AcDbSymbolTableRecord
100
AcDbLinetypeTableRecord
  2
CENTERX2
 70
     0
  3
Center (2x) ________  __  ________  __  _____
 72
    65
 73
     4
 40
20.32
 49
12.7
 74
     0
 49
-2.54
 74
     0
 49
2.54
 74
     0
 49
-2.54
 74
     0
  0
LTYPE
  5
72
330
5
100
AcDbSymbolTableRecord
100
AcDbLinetypeTableRecord
  2
DOT2
 70
     0
  3
Dot (.5x) ........................................
 72
    65
 73
     2
 40
0.635
 49
0.0
 74
     0
 49
-0.635
 74
     0
  0
ENDTAB
  0
TABLE
  2
LAYER
  5
2
330
0
100
AcDbSymbolTable
 70
    17
  0
LAYER
  5
10
330
2
100
AcDbSymbolTableRecord
100
AcDbLayerTableRecord
  2
0
 70
     0
 62
     7
  6
Continuous
370
    -3
390
F
  0
LAYER
  5
73
330
2
100
AcDbSymbolTableRecord
100
AcDbLayerTableRecord
  2
FORMAT
 70
     0
 62
     7
  6
Continuous
370
    -3
390
F
  0
LAYER
  5
74
330
2
100
AcDbSymbolTableRecord
100
AcDbLayerTableRecord
  2
YARDIMCI_GEOMETRI
 70
     0
 62
    -6
  6
Continuous
290
     0
370
    -3
390
F
  0
LAYER
  5
75
330
2
100
AcDbSymbolTableRecord
100
AcDbLayerTableRecord
  2
SAYFA_CERCEVESI
 70
     0
 62
     7
  6
Continuous
370
    25
390
F
  0
LAYER
  5
76
330
2
100
AcDbSymbolTableRecord
100
AcDbLayerTableRecord
  2
ANTET
 70
     0
 62
     7
  6
Continuous
370
    -3
390
F
  0
LAYER
  5
77
330
2
100
AcDbSymbolTableRecord
100
AcDbLayerTableRecord
  2
OLCU
 70
     0
 62
   150
  6
Continuous
370
    -3
390
F
  0
LAYER
  5
78
330
2
100
AcDbSymbolTableRecord
100
AcDbLayerTableRecord
  2
METIN
 70
     0
 62
    96
  6
Continuous
370
    -3
390
F
  0
LAYER
  5
79
330
2
100
AcDbSymbolTableRecord
100
AcDbLayerTableRecord
  2
BALON
 70
     0
 62
     5
  6
Continuous
370
    -3
390
F
  0
LAYER
  5
7A
330
2
100
AcDbSymbolTableRecord
100
AcDbLayerTableRecord
  2
VURGU
 70
     0
 62
     7
  6
Continuous
370
    -3
390
F
  0
LAYER
  5
7B
330
2
100
AcDbSymbolTableRecord
100
AcDbLayerTableRecord
  2
SILIK
 70
     0
 62
     7
  6
Continuous
370
    -3
390
F
  0
LAYER
  5
7C
330
2
100
AcDbSymbolTableRecord
100
AcDbLayerTableRecord
  2
MODEL
 70
     0
 62
     7
  6
Continuous
370
    -3
390
F
  0
LAYER
  5
7D
330
2
100
AcDbSymbolTableRecord
100
AcDbLayerTableRecord
  2
DETAYLANDıRMA
 70
     0
 62
   190
  6
Continuous
370
    -3
390
F
  0
LAYER
  5
7E
330
2
100
AcDbSymbolTableRecord
100
AcDbLayerTableRecord
  2
TOLERANS
 70
     0
 62
   230
  6
Continuous
370
    -3
390
F
  0
LAYER
  5
7F
330
2
100
AcDbSymbolTableRecord
100
AcDbLayerTableRecord
  2
MERKEZ_CIZGILERI
 70
     0
 62
    30
  6
Continuous
370
    -3
390
F
  0
LAYER
  5
80
330
2
100
AcDbSymbolTableRecord
100
AcDbLayerTableRecord
  2
KESIT-DETAY_CIZGILERI
 70
     0
 62
     7
  6
Continuous
370
    -3
390
F
  0
LAYER
  5
81
330
2
100
AcDbSymbolTableRecord
100
AcDbLayerTableRecord
  2
\U+041E\U+0421\U+0415\U+0412\U+042B\U+0415
 70
     0
 62
     7
  6
Continuous
370
    -3
390
F
  0
LAYER
  5
82
330
2
100
AcDbSymbolTableRecord
100
AcDbLayerTableRecord
  2
\U+0412\U+041E\U+0414\U+042F\U+041D\U+042B\U+0415_\U+0417\U+041D\U+0410\U+041A\U+0418
 70
     0
 62
    11
  6
Continuous
370
    -3
390
F
  0
ENDTAB
  0
TABLE
  2
STYLE
  5
3
330
0
100
AcDbSymbolTable
 70
     1
  0
STYLE
  5
11
330
3
100
AcDbSymbolTableRecord
100
AcDbTextStyleTableRecord
  2
Standard
 70
     0
 40
0.0
 41
1.0
 50
0.0
 71
     0
 42
3.5
  3
txt
  4

  0
ENDTAB
  0
TABLE
  2
VIEW
  5
6
330
0
100
AcDbSymbolTable
 70
     0
  0
ENDTAB
  0
TABLE
  2
UCS
  5
7
330
0
100
AcDbSymbolTable
 70
     0
  0
ENDTAB
  0
TABLE
  2
APPID
  5
9
330
0
100
AcDbSymbolTable
 70
     1
  0
APPID
  5
12
330
9
100
AcDbSymbolTableRecord
100
AcDbRegAppTableRecord
  2
ACAD
 70
     0
  0
ENDTAB
  0
TABLE
  2
DIMSTYLE
  5
A
330
0
100
AcDbSymbolTable
 70
     1
100
AcDbDimStyleTable
  0
DIMSTYLE
105
27
330
A
100
AcDbSymbolTableRecord
100
AcDbDimStyleTableRecord
  2
ISO-25
 70
     0
 41
2.5
 42
0.625
 43
3.75
 44
1.25
 73
     0
 74
     0
 77
     1
 78
     8
140
2.5
141
2.5
143
0.0393700787
147
0.625
171
     3
172
     1
178
     0
271
     2
272
     2
274
     3
278
    44
283
     0
284
     8
340
11
  0
ENDTAB
  0
TABLE
  2
BLOCK_RECORD
  5
1
330
0
100
AcDbSymbolTable
 70
     2
  0
BLOCK_RECORD
  5
1F
330
1
100
AcDbSymbolTableRecord
100
AcDbBlockTableRecord
  2
*Model_Space
340
22
  0
BLOCK_RECORD
  5
1B
330
1
100
AcDbSymbolTableRecord
100
AcDbBlockTableRecord
  2
*Paper_Space
340
1E
  0
BLOCK_RECORD
  5
23
330
1
100
AcDbSymbolTableRecord
100
AcDbBlockTableRecord
  2
*Paper_Space0
340
26
  0
BLOCK_RECORD
  5
87
330
1
100
AcDbSymbolTableRecord
100
AcDbBlockTableRecord
  2
SW_CENTERMARKSYMBOL_0
340
0
102
{BLKREFS
331
92
102
}
  0
ENDTAB
  0
ENDSEC
  0
SECTION
  2
BLOCKS
  0
BLOCK
  5
20
330
1F
100
AcDbEntity
  8
0
100
AcDbBlockBegin
  2
*Model_Space
 70
     0
 10
0.0
 20
0.0
 30
0.0
  3
*Model_Space
  1

  0
ENDBLK
  5
21
330
1F
100
AcDbEntity
  8
0
100
AcDbBlockEnd
  0
BLOCK
  5
1C
330
1B
100
AcDbEntity
 67
     1
  8
0
100
AcDbBlockBegin
  2
*Paper_Space
 70
     0
 10
0.0
 20
0.0
 30
0.0
  3
*Paper_Space
  1

  0
ENDBLK
  5
1D
330
1B
100
AcDbEntity
 67
     1
  8
0
100
AcDbBlockEnd
  0
BLOCK
  5
24
330
23
100
AcDbEntity
  8
0
100
AcDbBlockBegin
  2
*Paper_Space0
 70
     0
 10
0.0
 20
0.0
 30
0.0
  3
*Paper_Space0
  1

  0
ENDBLK
  5
25
330
23
100
AcDbEntity
  8
0
100
AcDbBlockEnd
  0
BLOCK
  5
88
330
87
100
AcDbEntity
  8
0
100
AcDbBlockBegin
  2
SW_CENTERMARKSYMBOL_0
 70
     0
 10
0.0
 20
0.0
 30
0.0
  3
SW_CENTERMARKSYMBOL_0
  1

  0
LINE
  5
8A
330
87
100
AcDbEntity
  8
FORMAT
 62
     0
100
AcDbLine
 10
0.0
 20
0.0
 30
0.0
 11
0.0
 21
2.5
 31
0.0
  0
LINE
  5
8B
330
87
100
AcDbEntity
  8
FORMAT
 62
     0
100
AcDbLine
 10
0.0
 20
0.0
 30
0.0
 11
-2.5
 21
0.0
 31
0.0
  0
LINE
  5
8C
330
87
100
AcDbEntity
  8
FORMAT
 62
     0
100
AcDbLine
 10
0.0
 20
0.0
 30
0.0
 11
0.0
 21
-2.5
 31
0.0
  0
LINE
  5
8D
330
87
100
AcDbEntity
  8
FORMAT
 62
     0
100
AcDbLine
 10
0.0
 20
0.0
 30
0.0
 11
2.5
 21
0.0
 31
0.0
  0
LINE
  5
8E
330
87
100
AcDbEntity
  8
FORMAT
 62
     0
100
AcDbLine
 10
0.0
 20
5.0
 30
0.0
 11
0.0
 21
136.5
 31
0.0
  0
LINE
  5
8F
330
87
100
AcDbEntity
  8
FORMAT
 62
     0
100
AcDbLine
 10
-5.0
 20
0.0
 30
0.0
 11
-136.5
 21
0.0
 31
0.0
  0
LINE
  5
90
330
87
100
AcDbEntity
  8
FORMAT
 62
     0
100
AcDbLine
 10
0.0
 20
-5.0
 30
0.0
 11
0.0
 21
-136.5
 31
0.0
  0
LINE
  5
91
330
87
100
AcDbEntity
  8
FORMAT
 62
     0
100
AcDbLine
 10
5.0
 20
0.0
 30
0.0
 11
136.5
 21
0.0
 31
0.0
  0
ENDBLK
  5
89
330
87
100
AcDbEntity
  8
0
100
AcDbBlockEnd
  0
ENDSEC
  0
SECTION
  2
ENTITIES
  0
CIRCLE
  5
83
330
1F
100
AcDbEntity
  8
0
  6
Continuous
 62
     7
370
    25
100
AcDbCircle
 10
141.225021809
 20
106.7923654288
 30
0.0
 40
100.0
  0
CIRCLE
  5
84
330
1F
100
AcDbEntity
  8
0
  6
Continuous
 62
     7
370
    25
100
AcDbCircle
 10
141.225021809
 20
106.7923654288
 30
0.0
 40
81.8
  0
CIRCLE
  5
85
330
1F
100
AcDbEntity
  8
0
  6
Continuous
 62
     7
370
    25
100
AcDbCircle
 10
141.225021809
 20
106.7923654288
 30
0.0
 40
116.0
  0
CIRCLE
  5
86
330
1F
100
AcDbEntity
  8
0
  6
Continuous
 62
     7
370
    25
100
AcDbCircle
 10
141.225021809
 20
106.7923654288
 30
0.0
 40
134.0
  0
INSERT
  5
92
330
1F
100
AcDbEntity
  8
FORMAT
 62
     7
100
AcDbBlockReference
  2
SW_CENTERMARKSYMBOL_0
 10
141.225021809
 20
106.7923654288
 30
0.0
  0
LINE
  5
93
330
1F
100
AcDbEntity
  8
0
  6
Continuous
 62
     7
370
    25
100
AcDbLine
 10
275.225021809
 20
295.6696663879
 30
0.0
 11
275.225021809
 21
327.6696663879
 31
0.0
  0
LINE
  5
94
330
1F
100
AcDbEntity
  8
0
  6
Continuous
 62
     7
370
    25
100
AcDbLine
 10
7.225021809
 20
327.6696663879
 30
0.0
 11
7.225021809
 21
295.6696663879
 31
0.0
  0
LINE
  5
95
330
1F
100
AcDbEntity
  8
0
  6
Continuous
 62
     7
370
    25
100
AcDbLine
 10
257.225021809
 20
327.6696663879
 30
0.0
 11
241.225021809
 21
352.6696663879
 31
0.0
  0
LINE
  5
96
330
1F
100
AcDbEntity
  8
0
  6
Continuous
 62
     7
370
    25
100
AcDbLine
 10
41.225021809
 20
352.6696663879
 30
0.0
 11
25.225021809
 21
327.6696663879
 31
0.0
  0
LINE
  5
97
330
1F
100
AcDbEntity
  8
0
  6
Continuous
 62
     7
370
    25
100
AcDbLine
 10
241.225021809
 20
352.6696663879
 30
0.0
 11
241.225021809
 21
505.6696663879
 31
0.0
  0
LINE
  5
98
330
1F
100
AcDbEntity
  8
0
  6
Continuous
 62
     7
370
    25
100
AcDbLine
 10
41.225021809
 20
505.6696663879
 30
0.0
 11
41.225021809
 21
352.6696663879
 31
0.0
  0
LINE
  5
99
330
1F
100
AcDbEntity
  8
0
  6
Continuous
 62
     7
370
    25
100
AcDbLine
 10
275.225021809
 20
295.6696663879
 30
0.0
 11
7.225021809
 21
295.6696663879
 31
0.0
  0
LINE
  5
9A
330
1F
100
AcDbEntity
  8
0
  6
Continuous
 62
     7
370
    25
100
AcDbLine
 10
275.225021809
 20
327.6696663879
 30
0.0
 11
7.225021809
 21
327.6696663879
 31
0.0
  0
LINE
  5
9B
330
1F
100
AcDbEntity
  8
0
  6
Continuous
 62
     7
370
    25
100
AcDbLine
 10
241.225021809
 20
352.6696663879
 30
0.0
 11
41.225021809
 21
352.6696663879
 31
0.0
  0
LINE
  5
9C
330
1F
100
AcDbEntity
  8
0
  6
Continuous
 62
     7
370
    25
100
AcDbLine
 10
241.225021809
 20
505.6696663879
 30
0.0
 11
41.225021809
 21
505.6696663879
 31
0.0
  0
LINE
  5
9D
330
1F
100
AcDbEntity
  8
0
  6
Continuous
 62
     7
370
    25
100
AcDbLine
 10
-73.9887962089
 20
240.7923654288
 30
0.0
 11
-105.9887962089
 21
240.7923654288
 31
0.0
  0
LINE
  5
9E
330
1F
100
AcDbEntity
  8
0
  6
Continuous
 62
     7
370
    25
100
AcDbLine
 10
-105.9887962089
 20
-27.2076345712
 30
0.0
 11
-73.9887962089
 21
-27.2076345712
 31
0.0
  0
LINE
  5
9F
330
1F
100
AcDbEntity
  8
0
  6
Continuous
 62
     7
370
    25
100
AcDbLine
 10
-105.9887962089
 20
222.7923654288
 30
0.0
 11
-130.9887962089
 21
206.7923654288
 31
0.0
  0
LINE
  5
A0
330
1F
100
AcDbEntity
  8
0
  6
Continuous
 62
     7
370
    25
100
AcDbLine
 10
-130.9887962089
 20
6.7923654288
 30
0.0
 11
-105.9887962089
 21
-9.2076345712
 31
0.0
  0
LINE
  5
A1
330
1F
100
AcDbEntity
  8
0
  6
Continuous
 62
     7
370
    25
100
AcDbLine
 10
-130.9887962089
 20
206.7923654288
 30
0.0
 11
-283.9887962089
 21
206.7923654288
 31
0.0
  0
LINE
  5
A2
330
1F
100
AcDbEntity
  8
0
  6
Continuous
 62
     7
370
    25
100
AcDbLine
 10
-283.9887962089
 20
6.7923654288
 30
0.0
 11
-130.9887962089
 21
6.7923654288
 31
0.0
  0
LINE
  5
A3
330
1F
100
AcDbEntity
  8
0
  6
Continuous
 62
     7
370
    25
100
AcDbLine
 10
-73.9887962089
 20
240.7923654288
 30
0.0
 11
-73.9887962089
 21
-27.2076345712
 31
0.0
  0
LINE
  5
A4
330
1F
100
AcDbEntity
  8
0
  6
Continuous
 62
     7
370
    25
100
AcDbLine
 10
-105.9887962089
 20
240.7923654288
 30
0.0
 11
-105.9887962089
 21
-27.2076345712
 31
0.0
  0
LINE
  5
A5
330
1F
100
AcDbEntity
  8
0
  6
Continuous
 62
     7
370
    25
100
AcDbLine
 10
-130.9887962089
 20
206.7923654288
 30
0.0
 11
-130.9887962089
 21
6.7923654288
 31
0.0
  0
LINE
  5
A6
330
1F
100
AcDbEntity
  8
0
  6
Continuous
 62
     7
370
    25
100
AcDbLine
 10
-283.9887962089
 20
206.7923654288
 30
0.0
 11
-283.9887962089
 21
6.7923654288
 31
0.0
  0
LINE
  5
A7
330
1F
100
AcDbEntity
  8
0
  6
Continuous
 62
     7
370
    25
100
AcDbLine
 10
334.8418633929
 20
-27.2076345712
 30
0.0
 11
366.8418633929
 21
-27.2076345712
 31
0.0
  0
LINE
  5
A8
330
1F
100
AcDbEntity
  8
0
  6
Continuous
 62
     7
370
    25
100
AcDbLine
 10
366.8418633929
 20
240.7923654288
 30
0.0
 11
334.8418633929
 21
240.7923654288
 31
0.0
  0
LINE
  5
A9
330
1F
100
AcDbEntity
  8
0
  6
Continuous
 62
     7
370
    25
100
AcDbLine
 10
366.8418633929
 20
-9.2076345712
 30
0.0
 11
391.8418633929
 21
6.7923654288
 31
0.0
  0
LINE
  5
AA
330
1F
100
AcDbEntity
  8
0
  6
Continuous
 62
     7
370
    25
100
AcDbLine
 10
391.8418633929
 20
206.7923654288
 30
0.0
 11
366.8418633929
 21
222.7923654288
 31
0.0
  0
LINE
  5
AB
330
1F
100
AcDbEntity
  8
0
  6
Continuous
 62
     7
370
    25
100
AcDbLine
 10
391.8418633929
 20
6.7923654288
 30
0.0
 11
544.8418633929
 21
6.7923654288
 31
0.0
  0
LINE
  5
AC
330
1F
100
AcDbEntity
  8
0
  6
Continuous
 62
     7
370
    25
100
AcDbLine
 10
544.8418633929
 20
206.7923654288
 30
0.0
 11
391.8418633929
 21
206.7923654288
 31
0.0
  0
LINE
  5
AD
330
1F
100
AcDbEntity
  8
0
  6
Continuous
 62
     7
370
    25
100
AcDbLine
 10
334.8418633929
 20
106.7923654288
 30
0.0
 11
334.8418633929
 21
240.7923654288
 31
0.0
  0
LINE
  5
AE
330
1F
100
AcDbEntity
  8
0
  6
Continuous
 62
     7
370
    25
100
AcDbLine
 10
334.8418633929
 20
-27.2076345712
 30
0.0
 11
334.8418633929
 21
106.7923654288
 31
0.0
  0
LINE
  5
AF
330
1F
100
AcDbEntity
  8
0
  6
Continuous
 62
     7
370
    25
100
AcDbLine
 10
366.8418633929
 20
106.7923654288
 30
0.0
 11
366.8418633929
 21
240.7923654288
 31
0.0
  0
LINE
  5
B0
330
1F
100
AcDbEntity
  8
0
  6
Continuous
 62
     7
370
    25
100
AcDbLine
 10
366.8418633929
 20
-27.2076345712
 30
0.0
 11
366.8418633929
 21
106.7923654288
 31
0.0
  0
LINE
  5
B1
330
1F
100
AcDbEntity
  8
0
  6
Continuous
 62
     7
370
    25
100
AcDbLine
 10
391.8418633929
 20
106.7923654288
 30
0.0
 11
391.8418633929
 21
206.7923654288
 31
0.0
  0
LINE
  5
B2
330
1F
100
AcDbEntity
  8
0
  6
Continuous
 62
     7
370
    25
100
AcDbLine
 10
391.8418633929
 20
6.7923654288
 30
0.0
 11
391.8418633929
 21
106.7923654288
 31
0.0
  0
LINE
  5
B3
330
1F
100
AcDbEntity
  8
0
  6
Continuous
 62
     7
370
    25
100
AcDbLine
 10
544.8418633929
 20
106.7923654288
 30
0.0
 11
544.8418633929
 21
206.7923654288
 31
0.0
  0
LINE
  5
B4
330
1F
100
AcDbEntity
  8
0
  6
Continuous
 62
     7
370
    25
100
AcDbLine
 10
544.8418633929
 20
6.7923654288
 30
0.0
 11
544.8418633929
 21
106.7923654288
 31
0.0
  0
LINE
  5
B5
330
1F
100
AcDbEntity
  8
0
  6
Continuous
 62
     7
370
    25
100
AcDbLine
 10
7.225021809
 20
-80.5347405256
 30
0.0
 11
7.225021809
 21
-112.5347405256
 31
0.0
  0
LINE
  5
B6
330
1F
100
AcDbEntity
  8
0
  6
Continuous
 62
     7
370
    25
100
AcDbLine
 10
275.225021809
 20
-112.5347405256
 30
0.0
 11
275.225021809
 21
-80.5347405256
 31
0.0
  0
LINE
  5
B7
330
1F
100
AcDbEntity
  8
0
  6
Continuous
 62
     7
370
    25
100
AcDbLine
 10
25.225021809
 20
-112.5347405256
 30
0.0
 11
41.225021809
 21
-137.5347405256
 31
0.0
  0
LINE
  5
B8
330
1F
100
AcDbEntity
  8
0
  6
Continuous
 62
     7
370
    25
100
AcDbLine
 10
241.225021809
 20
-137.5347405256
 30
0.0
 11
257.225021809
 21
-112.5347405256
 31
0.0
  0
LINE
  5
B9
330
1F
100
AcDbEntity
  8
0
  6
Continuous
 62
     7
370
    25
100
AcDbLine
 10
41.225021809
 20
-137.5347405256
 30
0.0
 11
41.225021809
 21
-290.5347405256
 31
0.0
  0
LINE
  5
BA
330
1F
100
AcDbEntity
  8
0
  6
Continuous
 62
     7
370
    25
100
AcDbLine
 10
241.225021809
 20
-290.5347405256
 30
0.0
 11
241.225021809
 21
-137.5347405256
 31
0.0
  0
LINE
  5
BB
330
1F
100
AcDbEntity
  8
0
  6
Continuous
 62
     7
370
    25
100
AcDbLine
 10
7.225021809
 20
-80.5347405256
 30
0.0
 11
275.225021809
 21
-80.5347405256
 31
0.0
  0
LINE
  5
BC
330
1F
100
AcDbEntity
  8
0
  6
Continuous
 62
     7
370
    25
100
AcDbLine
 10
7.225021809
 20
-112.5347405256
 30
0.0
 11
275.225021809
 21
-112.5347405256
 31
0.0
  0
LINE
  5
BD
330
1F
100
AcDbEntity
  8
0
  6
Continuous
 62
     7
370
    25
100
AcDbLine
 10
41.225021809
 20
-137.5347405256
 30
0.0
 11
241.225021809
 21
-137.5347405256
 31
0.0
  0
LINE
  5
BE
330
1F
100
AcDbEntity
  8
0
  6
Continuous
 62
     7
370
    25
100
AcDbLine
 10
41.225021809
 20
-290.5347405256
 30
0.0
 11
241.225021809
 21
-290.5347405256
 31
0.0
  0
LINE
  5
BF
330
1F
100
AcDbEntity
  8
0
  6
Continuous
 62
     7
370
    25
100
AcDbLine
 10
408.5214914037
 20
-118.7059804306
 30
0.0
 11
337.1170968974
 21
-188.3988584716
 31
0.0
  0
LINE
  5
C0
330
1F
100
AcDbEntity
  8
0
  6
Continuous
 62
     7
370
    25
100
AcDbLine
 10
476.8127286275
 20
-331.5251330529
 30
0.0
 11
548.2171231338
 21
-261.8322550118
 31
0.0
  0
LINE
  5
C1
330
1F
100
AcDbEntity
  8
0
  6
Continuous
 62
     7
370
    25
100
AcDbLine
 10
411.3748711786
 20
-68.4105003639
 30
0.0
 11
396.4406187328
 21
-82.9867885816
 31
0.0
  0
LINE
  5
C2
330
1F
100
AcDbEntity
  8
0
  6
Continuous
 62
     7
370
    25
100
AcDbLine
 10
583.6327652512
 20
-274.7759965206
 30
0.0
 11
598.5670176969
 21
-260.1997083028
 31
0.0
  0
LWPOLYLINE
  5
C3
330
1F
100
AcDbEntity
  8
0
  6
Continuous
 62
     7
370
    25
100
AcDbPolyline
 90
      116
 70
   128
 43
0.0
 10
318.5231005947
 20
-235.9254062939
 10
318.6550731588
 20
-231.280350251
 10
319.050596993
 20
-226.7208915112
 10
319.7084916989
 20
-222.2606372914
 10
320.62679386
 20
-217.9128987431
 10
321.8027629017
 20
-213.6906512272
 10
323.2328892703
 20
-209.6064955895
 10
324.9129049066
 20
-205.6726205558
 10
326.8377959835
 20
-201.9007663553
 10
329.0018178696
 20
-198.3021896835
 10
331.3985122731
 20
-194.8876301073
 10
334.0207265158
 20
-191.6672780148
 10
336.8606348798
 20
-188.6507442022
 10
339.9097619624
 20
-185.847031192
 10
343.15900797
 20
-183.2645063658
 10
346.5986758754
 20
-180.9108769927
 10
350.2185003577
 20
-178.7931672278
 10
354.0076784378
 20
-176.9176971495
 10
357.9549017192
 20
-175.2900638974
 10
362.0483901362
 20
-173.915124969
 10
366.2759271105
 20
-172.7969837224
 10
370.6248960101
 20
-171.9389771306
 10
375.0823178025
 20
-171.3436658225
 10
379.6348897893
 20
-171.0128264409
 10
384.2690253062
 20
-170.9474463407
 10
388.9708942716
 20
-171.1477206417
 10
393.7264644605
 20
-171.6130516468
 10
398.5215433822
 20
-172.3420506252
 10
403.3418206367
 20
-173.3325419576
 10
408.1729106221
 20
-174.5815696285
 10
413.0003954671
 20
-176.0854060484
 10
417.8098680596
 20
-177.8395631785
 10
422.586975043
 20
-179.8388059242
 10
427.3174596525
 20
-182.0771677596
 10
431.9872042629
 20
-184.5479685332
 10
436.5822725209
 20
-187.2438344044
 10
441.0889509366
 20
-190.1567198497
 10
445.4937898106
 20
-193.2779316743
 10
449.7836433722
 20
-196.5981549552
 10
453.9457090125
 20
-200.1074808413
 10
457.9675654917
 20
-203.7954361248
 10
461.8372100094
 20
-207.6510144976
 10
465.5430940254
 20
-211.6627093985
 10
469.0741577253
 20
-215.8185483532
 10
472.4198630271
 20
-220.1061287049
 10
475.5702250313
 20
-224.5126546285
 10
478.5158418195
 20
-229.024975319
 10
481.2479225133
 20
-233.6296242377
 10
483.7583135103
 20
-238.3128593027
 10
486.039522817
 20
-243.0607038996
 10
488.0847424083
 20
-247.8589885943
 10
489.887868545
 20
-252.6933934192
 10
491.4435199902
 20
-257.5494906104
 10
492.7470540683
 20
-262.4127876651
 10
493.7945805215
 20
-267.2687705936
 10
494.582973119
 20
-272.1029472341
 10
495.1098789875
 20
-276.9008905036
 10
495.3737256328
 20
-281.6482814537
 10
495.3737256328
 20
-286.3309520038
 10
495.1098789875
 20
-290.9349272245
 10
494.582973119
 20
-295.4464670444
 10
493.7945805215
 20
-299.8521072553
 10
492.7470540683
 20
-304.1386996954
 10
491.4435199902
 20
-308.2934514879
 10
489.887868545
 20
-312.3039632207
 10
488.0847424083
 20
-316.1582659503
 10
486.039522817
 20
-319.8448569227
 10
483.7583135103
 20
-323.3527339013
 10
481.2479225133
 20
-326.6714280026
 10
478.5158418195
 20
-329.791034939
 10
475.5702250313
 20
-332.7022445773
 10
472.4198630271
 20
-335.3963687237
 10
469.0741577253
 20
-337.8653670528
 10
465.5430940254
 20
-340.1018711034
 10
461.8372100094
 20
-342.0992062682
 10
457.9675654917
 20
-343.8514117141
 10
453.9457090125
 20
-345.3532581714
 10
449.7836433722
 20
-346.6002635399
 10
445.4937898106
 20
-347.5887062656
 10
441.0889509366
 20
-348.3156364469
 10
436.5822725209
 20
-348.7788846383
 10
431.9872042629
 20
-348.9770683252
 10
427.3174596525
 20
-348.9095960497
 10
422.586975043
 20
-348.5766691754
 10
417.8098680596
 20
-347.979281287
 10
413.0003954671
 20
-347.1192152248
 10
408.1729106221
 20
-345.999037764
 10
403.3418206367
 20
-344.6220919543
 10
398.5215433822
 20
-342.9924871432
 10
393.7264644605
 20
-341.1150867121
 10
388.9708942716
 20
-338.9954935615
 10
384.2690253062
 20
-336.6400333907
 10
379.6348897893
 20
-334.0557358185
 10
375.0823178025
 20
-331.2503134046
 10
370.6248960101
 20
-328.232138632
 10
366.2759271105
 20
-325.0102189207
 10
362.0483901362
 20
-321.5941697452
 10
357.9549017192
 20
-317.994185939
 10
354.0076784378
 20
-314.2210112687
 10
350.2185003577
 20
-310.2859063705
 10
346.5986758754
 20
-306.200615144
 10
343.15900797
 20
-301.9773297039
 10
339.9097619624
 20
-297.6286539938
 10
336.8606348798
 20
-293.1675661713
 10
334.0207265158
 20
-288.6073798757
 10
331.3985122731
 20
-283.9617044953
 10
329.0018178696
 20
-279.2444045514
 10
326.8377959835
 20
-274.469558321
 10
324.9129049066
 20
-269.6514158219
 10
323.2328892703
 20
-264.8043562851
 10
321.8027629017
 20
-259.9428452413
 10
320.62679386
 20
-255.0813913502
 10
319.7084916989
 20
-250.2345031009
 10
319.050596993
 20
-245.4166455129
 10
318.6550731588
 20
-240.6421969669
 10
318.5231005947
 20
-235.9254062939
  0
LWPOLYLINE
  5
C4
330
1F
100
AcDbEntity
  8
0
  6
Continuous
 62
     7
370
    25
100
AcDbPolyline
 90
      105
 70
   128
 43
0.0
 10
334.6195104092
 20
-240.3000655771
 10
334.751500673
 20
-236.1024217575
 10
335.1469898462
 20
-231.991838936
 10
335.8045348317
 20
-227.9833161835
 10
336.7217363192
 20
-224.0914801648
 10
337.8952475399
 20
-220.3305317674
 10
339.3207864786
 20
-216.7141942843
 10
340.9931514983
 20
-213.2556633387
 10
342.9062403205
 20
-209.967558735
 10
345.0530722914
 20
-206.8618784102
 10
347.4258138542
 20
-203.9499546551
 10
350.015807132
 20
-201.2424127638
 10
352.8136015203
 20
-198.7491322628
 10
355.8089881708
 20
-196.4792108624
 10
358.9910372425
 20
-194.4409312596
 10
362.3481377833
 20
-192.6417309157
 10
365.8680400975
 20
-191.0881749175
 10
369.5379004432
 20
-189.7859320224
 10
373.3443278981
 20
-188.7397539736
 10
377.273433221
 20
-187.9534581613
 10
381.3108795329
 20
-187.4299136935
 10
385.44193463
 20
-187.1710309274
 10
389.6515247401
 20
-187.1777544981
 10
393.9242895256
 20
-187.4500598719
 10
398.244638131
 20
-187.986953436
 10
402.5968060729
 20
-188.7864761242
 10
406.9649127624
 20
-189.8457105648
 10
411.3330194519
 20
-191.1607917262
 10
415.6851873938
 20
-192.7269210199
 10
420.0055359993
 20
-194.5383838099
 10
424.2783007847
 20
-196.5885702649
 10
428.4878908949
 20
-198.869999477
 10
432.6189459919
 20
-201.3743467582
 10
436.6563923038
 20
-204.0924740171
 10
440.5854976268
 20
-207.0144631019
 10
444.3919250816
 20
-210.1296519914
 10
448.0617854274
 20
-213.4266736992
 10
451.5816877416
 20
-216.8934977506
 10
454.9387882824
 20
-220.5174740807
 10
458.1208373541
 20
-224.2853791927
 10
461.1162240046
 20
-228.1834644095
 10
463.9140183929
 20
-232.197506041
 10
466.5040116707
 20
-236.3128572845
 10
468.8767532334
 20
-240.5145016697
 10
471.0235852044
 20
-244.7871078518
 10
472.9366740266
 20
-249.1150855542
 10
474.6090390463
 20
-253.4826424556
 10
476.034577985
 20
-257.8738418146
 10
477.2080892057
 20
-262.2726606209
 10
478.1252906932
 20
-266.6630480617
 10
478.7828356787
 20
-271.0289840894
 10
479.1783248519
 20
-275.3545378769
 10
479.3103151156
 20
-279.6239259474
 10
479.1783248519
 20
-283.821569767
 10
478.7828356787
 20
-287.9321525885
 10
478.1252906932
 20
-291.940675341
 10
477.2080892057
 20
-295.8325113597
 10
476.034577985
 20
-299.5934597571
 10
474.6090390463
 20
-303.2097972402
 10
472.9366740266
 20
-306.6683281858
 10
471.0235852044
 20
-309.9564327895
 10
468.8767532334
 20
-313.0621131143
 10
466.5040116707
 20
-315.9740368694
 10
463.9140183929
 20
-318.6815787608
 10
461.1162240046
 20
-321.1748592617
 10
458.1208373541
 20
-323.4447806621
 10
454.9387882824
 20
-325.4830602649
 10
451.5816877416
 20
-327.2822606088
 10
448.0617854274
 20
-328.835816607
 10
444.3919250816
 20
-330.1380595021
 10
440.5854976268
 20
-331.1842375509
 10
436.6563923038
 20
-331.9705333632
 10
432.6189459919
 20
-332.494077831
 10
428.4878908949
 20
-332.7529605971
 10
424.2783007847
 20
-332.7462370264
 10
420.0055359993
 20
-332.4739316527
 10
415.6851873938
 20
-331.9370380885
 10
411.3330194519
 20
-331.1375154003
 10
406.9649127624
 20
-330.0782809597
 10
402.5968060729
 20
-328.7631997983
 10
398.244638131
 20
-327.1970705046
 10
393.9242895256
 20
-325.3856077146
 10
389.6515247401
 20
-323.3354212596
 10
385.44193463
 20
-321.0539920475
 10
381.3108795329
 20
-318.5496447663
 10
377.273433221
 20
-315.8315175074
 10
373.3443278981
 20
-312.9095284226
 10
369.5379004432
 20
-309.7943395331
 10
365.8680400975
 20
-306.4973178253
 10
362.3481377833
 20
-303.0304937739
 10
358.9910372425
 20
-299.4065174438
 10
355.8089881708
 20
-295.6386123318
 10
352.8136015203
 20
-291.740527115
 10
350.015807132
 20
-287.7264854835
 10
347.4258138542
 20
-283.61113424
 10
345.0530722914
 20
-279.4094898548
 10
342.9062403205
 20
-275.1368836727
 10
340.9931514983
 20
-270.8089059703
 10
339.3207864786
 20
-266.4413490689
 10
337.8952475399
 20
-262.0501497099
 10
336.7217363192
 20
-257.6513309036
 10
335.8045348317
 20
-253.2609434628
 10
335.1469898462
 20
-248.8950074351
 10
334.751500673
 20
-244.5694536476
 10
334.6195104092
 20
-240.3000655771
  0
LWPOLYLINE
  5
C5
330
1F
100
AcDbEntity
  8
0
  6
Continuous
 62
     7
370
    25
100
AcDbPolyline
 90
       59
 70
   128
 43
0.0
 10
408.5214914037
 20
-118.7059804306
 10
411.3141564687
 20
-116.1541531509
 10
414.5634024763
 20
-113.5716283247
 10
418.0030703817
 20
-111.2179989517
 10
421.622894864
 20
-109.1002891868
 10
425.4120729441
 20
-107.2248191084
 10
429.3592962255
 20
-105.5971858563
 10
433.4527846425
 20
-104.2222469279
 10
437.6803216168
 20
-103.1041056814
 10
442.0292905164
 20
-102.2460990896
 10
446.4867123088
 20
-101.6507877814
 10
451.0392842956
 20
-101.3199483999
 10
455.6734198125
 20
-101.2545682996
 10
460.3752887779
 20
-101.4548426007
 10
465.1308589668
 20
-101.9201736057
 10
469.9259378885
 20
-102.6491725842
 10
474.746215143
 20
-103.6396639166
 10
479.5773051284
 20
-104.8886915875
 10
484.4047899734
 20
-106.3925280074
 10
489.2142625659
 20
-108.1466851374
 10
493.9913695493
 20
-110.1459278832
 10
498.7218541588
 20
-112.3842897186
 10
503.3915987692
 20
-114.8550904922
 10
507.9866670272
 20
-117.5509563633
 10
512.4933454429
 20
-120.4638418087
 10
516.8981843169
 20
-123.5850536332
 10
521.1880378785
 20
-126.9052769142
 10
525.3501035188
 20
-130.4146028002
 10
529.371959998
 20
-134.1025580837
 10
533.2416045157
 20
-137.9581364565
 10
536.9474885317
 20
-141.9698313574
 10
540.4785522316
 20
-146.1256703121
 10
543.8242575334
 20
-150.4132506638
 10
546.9746195376
 20
-154.8197765875
 10
549.9202363258
 20
-159.3320972779
 10
552.6523170196
 20
-163.9367461967
 10
555.1627080166
 20
-168.6199812616
 10
557.4439173233
 20
-173.3678258586
 10
559.4891369146
 20
-178.1661105532
 10
561.2922630513
 20
-183.0005153782
 10
562.8479144965
 20
-187.8566125693
 10
564.1514485746
 20
-192.7199096241
 10
565.1989750278
 20
-197.5758925525
 10
565.9873676253
 20
-202.410069193
 10
566.5142734938
 20
-207.2080124626
 10
566.7781201391
 20
-211.9554034126
 10
566.7781201391
 20
-216.6380739627
 10
566.5142734938
 20
-221.2420491835
 10
565.9873676253
 20
-225.7535890033
 10
565.1989750278
 20
-230.1592292143
 10
564.1514485746
 20
-234.4458216543
 10
562.8479144965
 20
-238.6005734469
 10
561.2922630513
 20
-242.6110851796
 10
559.4891369146
 20
-246.4653879093
 10
557.4439173233
 20
-250.1519788816
 10
555.1627080166
 20
-253.6598558603
 10
552.6523170196
 20
-256.9785499616
 10
549.9202363258
 20
-260.0981568979
 10
548.2171231338
 20
-261.8322550118
  0
LWPOLYLINE
  5
C6
330
1F
100
AcDbEntity
  8
0
  6
Continuous
 62
     7
370
    25
100
AcDbPolyline
 90
       23
 70
   128
 43
0.0
 10
476.3332719629
 20
-258.9077962272
 10
474.7016898827
 20
-258.3866227226
 10
470.3495219408
 20
-256.8204934289
 10
466.0291733354
 20
-255.0090306389
 10
461.7564085499
 20
-252.9588441839
 10
457.5468184397
 20
-250.6774149718
 10
453.4157633427
 20
-248.1730676905
 10
449.3783170308
 20
-245.4549404317
 10
445.4492117078
 20
-242.5329513469
 10
441.642784253
 20
-239.4177624573
 10
437.9729239073
 20
-236.1207407495
 10
434.4530215931
 20
-232.6539166981
 10
431.0959210522
 20
-229.0299403681
 10
427.9138719806
 20
-225.2620352561
 10
424.9184853301
 20
-221.3639500392
 10
422.1206909417
 20
-217.3499084078
 10
419.5306976639
 20
-213.2345571642
 10
417.1579561012
 20
-209.0329127791
 10
415.0111241302
 20
-204.760306597
 10
413.0980353081
 20
-200.4323288946
 10
411.4256702883
 20
-196.0647719931
 10
410.0001313496
 20
-191.6735726342
 10
409.7014373717
 20
-190.6396182216
  0
LWPOLYLINE
  5
C7
330
1F
100
AcDbEntity
  8
0
  6
Continuous
 62
     7
370
    25
100
AcDbPolyline
 90
       85
 70
   128
 43
0.0
 10
388.2955755185
 20
-138.4470943886
 10
388.6272533382
 20
-136.2638031082
 10
389.5442644227
 20
-131.5543089745
 10
390.7192381276
 20
-126.9663027855
 10
392.1491583122
 20
-122.5115618874
 10
393.8303543917
 20
-118.2015215361
 10
395.7585107601
 20
-114.0472455435
 10
397.9286778676
 20
-110.0593978764
 10
400.3352849263
 20
-106.2482152825
 10
402.9721542104
 20
-102.623481013
 10
405.8325169144
 20
-99.1944997087
 10
408.909030528
 20
-95.9700735154
 10
412.1937976852
 20
-92.958479489
 10
415.6783864355
 20
-90.1674483481
 10
419.3538518898
 20
-87.6041446297
 10
423.2107591809
 20
-85.2751482975
 10
427.2392076831
 20
-83.1864378518
 10
431.4288564269
 20
-81.3433749824
 10
435.768950644
 20
-79.7506908052
 10
440.2483493748
 20
-78.4124737176
 10
444.8555540671
 20
-77.3321589037
 10
449.5787380924
 20
-76.5125195162
 10
454.4057771051
 20
-75.9556595575
 10
459.3242801653
 20
-75.6630084793
 10
464.3216215462
 20
-75.6353175126
 10
469.3849731441
 20
-75.8726577398
 10
474.5013374081
 20
-76.3744199119
 10
479.6575807046
 20
-77.1393160126
 10
484.8404670308
 20
-78.1653825645
 10
490.036691992
 20
-79.4499856696
 10
495.2329169532
 20
-80.9898277702
 10
500.4158032794
 20
-82.7809561135
 10
505.5720465758
 20
-84.8187728989
 10
510.6884108398
 20
-87.0980470799
 10
515.7517624378
 20
-89.6129277923
 10
520.7491038187
 20
-92.3569593735
 10
525.6676068789
 20
-95.3230979337
 10
530.4946458916
 20
-98.5037294378
 10
535.2178299169
 20
-101.8906892503
 10
539.8250346092
 20
-105.475283094
 10
544.30443334
 20
-109.2483093679
 10
548.6445275571
 20
-113.2000827676
 10
552.8341763009
 20
-117.3204591475
 10
556.862624803
 20
-121.5988615605
 10
560.7195320941
 20
-126.0243074091
 10
564.3949975484
 20
-130.5854366371
 10
567.8795862988
 20
-135.2705408913
 10
571.1643534559
 20
-140.0675935762
 10
574.2408670696
 20
-144.9642807264
 10
577.1012297735
 20
-149.9480326163
 10
579.7380990577
 20
-155.0060560261
 10
582.1447061164
 20
-160.1253670824
 10
584.3148732238
 20
-165.292824587
 10
586.2430295922
 20
-170.4951637507
 10
587.9242256718
 20
-175.7190302435
 10
589.3541458563
 20
-180.9510144749
 10
590.5291195612
 20
-186.1776860166
 10
591.4461306458
 20
-191.3856280776
 10
592.1028251558
 20
-196.5614719453
 10
592.4975173658
 20
-201.6919313028
 10
592.6291941066
 20
-206.7638363344
 10
592.4975173658
 20
-211.7641675328
 10
592.1028251558
 20
-216.6800891194
 10
591.4461306458
 20
-221.498981994
 10
590.5291195612
 20
-226.2084761277
 10
589.3541458563
 20
-230.7964823167
 10
587.9242256718
 20
-235.2512232148
 10
586.2430295922
 20
-239.5612635661
 10
584.3148732238
 20
-243.7155395587
 10
582.1447061164
 20
-247.7033872258
 10
579.7380990577
 20
-251.5145698197
 10
577.1012297735
 20
-255.1393040892
 10
574.2408670696
 20
-258.5682853935
 10
571.1643534559
 20
-261.7927115867
 10
567.8795862988
 20
-264.8043056132
 10
564.3949975484
 20
-267.595336754
 10
560.7195320941
 20
-270.1586404725
 10
556.862624803
 20
-272.4876368047
 10
552.8341763009
 20
-274.5763472503
 10
548.6445275571
 20
-276.4194101198
 10
544.30443334
 20
-278.012094297
 10
539.8250346092
 20
-279.3503113846
 10
535.2178299169
 20
-280.4306261985
 10
530.4946458916
 20
-281.250265586
 10
527.9912072486
 20
-281.5733689699
  0
LWPOLYLINE
  5
C8
330
1F
100
AcDbEntity
  8
0
  6
Continuous
 62
     7
370
    25
100
AcDbPolyline
 90
       69
 70
   128
 43
0.0
 10
411.3748711786
 20
-68.4105003639
 10
411.4483020517
 20
-68.3389249796
 10
414.9901859799
 20
-65.0997745741
 10
418.7328521647
 20
-62.0819900509
 10
422.6679492545
 20
-59.2923052672
 10
426.7866965088
 20
-56.7369451006
 10
431.0799033921
 20
-54.4216115589
 10
435.5379900811
 20
-52.3514710565
 10
440.1510088411
 20
-50.5311428864
 10
444.9086662235
 20
-48.9646889125
 10
449.8003460343
 20
-47.6556045061
 10
454.8151330231
 20
-46.6068107464
 10
459.9418372393
 20
-45.8206479025
 10
465.169019001
 20
-45.298870211
 10
470.4850144218
 20
-45.042641962
 10
475.8779614373
 20
-45.0525349009
 10
481.3358262739
 20
-45.3285269526
 10
486.846430301
 20
-45.8700022711
 10
492.3974772062
 20
-46.675752613
 10
497.9765804333
 20
-47.7439800345
 10
503.5712908214
 20
-49.0723009023
 10
509.1691243841
 20
-50.6577512132
 10
514.7575901658
 20
-52.4967932076
 10
520.324218114
 20
-54.5853232638
 10
525.8565869051
 20
-56.9186810545
 10
531.3423516612
 20
-59.491659946
 10
536.7692714959
 20
-62.2985186164
 10
542.1252368291
 20
-65.3329938665
 10
547.3982964078
 20
-68.5883145953
 10
552.5766839741
 20
-72.0572169096
 10
557.6488445206
 20
-75.7319603317
 10
562.6034600738
 20
-79.6043450721
 10
567.429474949
 20
-83.6657303265
 10
572.1161204199
 20
-87.907053556
 10
576.6529387479
 20
-92.3188507103
 10
581.0298065172
 20
-96.8912773446
 10
585.2369572246
 20
-101.6141305873
 10
589.2650030715
 20
-106.4768719061
 10
593.1049559127
 20
-111.4686506235
 10
596.748247312
 20
-116.5783281294
 10
600.1867476615
 20
-121.7945027353
 10
603.4127843224
 20
-127.105535116
 10
606.4191587456
 20
-132.4995742814
 10
609.199162534
 20
-137.9645840211
 10
611.7465924123
 20
-143.4883697614
 10
614.0557640683
 20
-149.0586057763
 10
616.1215248369
 20
-154.6628626913
 10
617.9392651983
 20
-160.2886352176
 10
619.5049290629
 20
-165.9233700571
 10
620.8150228224
 20
-171.554493913
 10
621.8666231453
 20
-177.1694415461
 10
622.6573835002
 20
-182.7556838126
 10
623.1855393914
 20
-188.3007556216
 10
623.4499122967
 20
-193.7922837498
 10
623.4499122967
 20
-199.2180144506
 10
623.1855393914
 20
-204.5658407972
 10
622.6573835002
 20
-209.8238296978
 10
621.8666231453
 20
-214.9802485233
 10
620.8150228224
 20
-220.0235912869
 10
619.5049290629
 20
-224.942604319
 10
617.9392651983
 20
-229.7263113779
 10
616.1215248369
 20
-234.3640381428
 10
614.0557640683
 20
-238.8454360316
 10
611.7465924123
 20
-243.1605052935
 10
609.199162534
 20
-247.2996173216
 10
606.4191587456
 20
-251.2535361384
 10
603.4127843224
 20
-255.0134390051
 10
600.1867476615
 20
-258.5709361081
 10
598.5670176969
 20
-260.1997083028
  0
LWPOLYLINE
  5
C9
330
1F
100
AcDbEntity
  8
0
  6
Continuous
 62
     7
370
    25
100
AcDbPolyline
 90
       97
 70
   128
 43
0.0
 10
371.5246636872
 20
-146.6723626634
 10
371.6568870252
 20
-141.2840810097
 10
372.0532619974
 20
-135.9796936594
 10
372.712904136
 20
-130.7710367749
 10
373.6343415216
 20
-125.6697329064
 10
374.8155180671
 20
-120.6871650576
 10
376.2537981058
 20
-115.8344512855
 10
377.9459722724
 20
-111.1224198922
 10
379.8882646648
 20
-106.5615852622
 10
382.076341269
 20
-102.1621244009
 10
384.5053196307
 20
-97.9338542259
 10
387.1697797493
 20
-93.8862096613
 10
390.0637761724
 20
-90.0282225847
 10
393.1808512624
 20
-86.3685016739
 10
396.514049606
 20
-82.9152131973
 10
400.0559335341
 20
-79.6760627918
 10
403.798599719
 20
-76.6582782686
 10
407.7336968087
 20
-73.8685934849
 10
411.8524440631
 20
-71.3132333183
 10
416.1456509464
 20
-68.9978997766
 10
420.6037376353
 20
-66.9277592742
 10
425.2167563953
 20
-65.1074311041
 10
429.9744137777
 20
-63.5409771302
 10
434.8660935885
 20
-62.2318927238
 10
439.8808805774
 20
-61.1830989642
 10
445.0075847935
 20
-60.3969361203
 10
450.2347665552
 20
-59.8751584287
 10
455.5507619761
 20
-59.6189301797
 10
460.9437089915
 20
-59.6288231186
 10
466.4015738281
 20
-59.9048151704
 10
471.9121778552
 20
-60.4462904888
 10
477.4632247604
 20
-61.2520408308
 10
483.0423279875
 20
-62.3202682522
 10
488.6370383757
 20
-63.64858912
 10
494.2348719384
 20
-65.2340394309
 10
499.82333772
 20
-67.0730814254
 10
505.3899656682
 20
-69.1616114815
 10
510.9223344594
 20
-71.4949692722
 10
516.4080992154
 20
-74.0679481637
 10
521.8350190501
 20
-76.8748068342
 10
527.1909843833
 20
-79.9092820842
 10
532.464043962
 20
-83.1646028131
 10
537.6424315284
 20
-86.6335051273
 10
542.7145920749
 20
-90.3082485494
 10
547.6692076281
 20
-94.1806332899
 10
552.4952225032
 20
-98.2420185442
 10
557.1818679741
 20
-102.4833417738
 10
561.7186863021
 20
-106.895138928
 10
566.0955540715
 20
-111.4675655624
 10
570.3027047788
 20
-116.1904188051
 10
574.3307506257
 20
-121.0531601238
 10
578.170703467
 20
-126.0449388412
 10
581.8139948662
 20
-131.1546163471
 10
585.2524952157
 20
-136.370790953
 10
588.4785318766
 20
-141.6818233337
 10
591.4849062998
 20
-147.0758624992
 10
594.2649100883
 20
-152.5408722389
 10
596.8123399666
 20
-158.0646579792
 10
599.1215116225
 20
-163.6348939941
 10
601.1872723912
 20
-169.239150909
 10
603.0050127526
 20
-174.8649234354
 10
604.5706766172
 20
-180.4996582749
 10
605.8807703767
 20
-186.1307821308
 10
606.9323706996
 20
-191.7457297638
 10
607.7231310544
 20
-197.3319720303
 10
608.2512869457
 20
-202.8770438394
 10
608.5156598509
 20
-208.3685719676
 10
608.5156598509
 20
-213.7943026683
 10
608.2512869457
 20
-219.1421290149
 10
607.7231310544
 20
-224.4001179155
 10
606.9323706996
 20
-229.556536741
 10
605.8807703767
 20
-234.5998795046
 10
604.5706766172
 20
-239.5188925367
 10
603.0050127526
 20
-244.3025995957
 10
601.1872723912
 20
-248.9403263605
 10
599.1215116225
 20
-253.4217242494
 10
596.8123399666
 20
-257.7367935112
 10
594.2649100883
 20
-261.8759055393
 10
591.4849062998
 20
-265.8298243562
 10
588.4785318766
 20
-269.5897272228
 10
585.2524952157
 20
-273.1472243258
 10
581.8139948662
 20
-276.494377498
 10
578.170703467
 20
-279.6237179319
 10
574.3307506257
 20
-282.5282628453
 10
570.3027047788
 20
-285.2015310628
 10
566.0955540715
 20
-287.6375574777
 10
561.7186863021
 20
-289.8309063625
 10
557.1818679741
 20
-291.7766834981
 10
552.4952225032
 20
-293.4705470951
 10
547.6692076281
 20
-294.9087174812
 10
542.7145920749
 20
-296.0879855361
 10
537.6424315284
 20
-297.0057198516
 10
532.464043962
 20
-297.6598726036
 10
527.1909843833
 20
-298.0489841215
 10
521.8350190501
 20
-298.1721861454
 10
516.4080992154
 20
-298.0292037633
 10
511.4940215506
 20
-297.6751279558
  0
LWPOLYLINE
  5
CA
330
1F
100
AcDbEntity
  8
0
  6
Continuous
 62
     7
370
    25
100
AcDbPolyline
 90
        3
 70
   128
 43
0.0
 10
371.7983898204
 20
-154.5488533745
 10
371.6568870252
 20
-152.1325152573
 10
371.5246636872
 20
-146.6723626634
  0
ARC
  5
CB
330
1F
100
AcDbEntity
  8
0
  6
Continuous
 62
     7
370
    25
100
AcDbCircle
 10
545.5407339405
 20
-124.7077460542
 30
0.0
 40
134.0176225189725
100
AcDbArc
 50
217.0896793509
 51
231.5203878871
  0
ENDSEC
  0
SECTION
  2
OBJECTS
  0
DICTIONARY
  5
C
330
0
100
AcDbDictionary
281
     1
  3
ACAD_GROUP
350
D
  3
ACAD_LAYOUT
350
1A
  3
ACAD_MLINESTYLE
350
17
  3
ACAD_PLOTSETTINGS
350
19
  3
ACAD_PLOTSTYLENAME
350
E
  3
ACAD_SCALELIST
350
47
  0
DICTIONARY
  5
D
102
{ACAD_REACTORS
330
C
102
}
330
C
100
AcDbDictionary
281
     1
  0
DICTIONARY
  5
1A
102
{ACAD_REACTORS
330
C
102
}
330
C
100
AcDbDictionary
281
     1
  3
Layout1
350
1E
  3
Layout2
350
26
  3
Model
350
22
  0
DICTIONARY
  5
17
102
{ACAD_REACTORS
330
C
102
}
330
C
100
AcDbDictionary
281
     1
  3
Standard
350
18
  0
DICTIONARY
  5
19
102
{ACAD_REACTORS
330
C
102
}
330
C
100
AcDbDictionary
281
     1
  0
ACDBDICTIONARYWDFLT
  5
E
102
{ACAD_REACTORS
330
C
102
}
330
C
100
AcDbDictionary
281
     1
  3
Normal
350
F
100
AcDbDictionaryWithDefault
340
F
  0
DICTIONARY
  5
47
102
{ACAD_REACTORS
330
C
102
}
330
C
100
AcDbDictionary
281
     1
  3
A0
350
48
  3
A1
350
49
  3
A2
350
4A
  3
A3
350
4B
  3
A4
350
4C
  3
A5
350
4D
  3
A6
350
4E
  3
A7
350
4F
  3
A8
350
50
  3
A9
350
51
  3
B0
350
52
  3
B1
350
53
  3
B2
350
54
  3
B3
350
55
  3
B4
350
56
  3
B5
350
57
  3
B6
350
58
  3
B7
350
59
  3
B8
350
5A
  3
B9
350
5B
  3
C0
350
5C
  3
C1
350
5D
  3
C2
350
5E
  3
C3
350
5F
  3
C4
350
60
  3
C5
350
61
  3
C6
350
62
  3
C7
350
63
  3
C8
350
64
  3
C9
350
65
  3
D0
350
66
  3
D1
350
67
  3
D2
350
68
  0
LAYOUT
  5
1E
102
{ACAD_REACTORS
330
1A
102
}
330
1A
100
AcDbPlotSettings
  1

  2
none_device
  4

  6

 40
0.0
 41
0.0
 42
0.0
 43
0.0
 44
0.0
 45
0.0
 46
0.0
 47
0.0
 48
0.0
 49
0.0
140
0.0
141
0.0
142
1.0
143
1.0
 70
   688
 72
     1
 73
     0
 74
     5
  7

 75
    16
147
1.0
148
0.0
149
0.0
100
AcDbLayout
  1
Layout1
 70
     1
 71
     1
 10
0.0
 20
0.0
 11
420.0
 21
297.0
 12
0.0
 22
0.0
 32
0.0
 14
1.0000000000E+20
 24
1.0000000000E+20
 34
1.0000000000E+20
 15
-1.0000000000E+20
 25
-1.0000000000E+20
 35
-1.0000000000E+20
146
0.0
 13
0.0
 23
0.0
 33
0.0
 16
1.0
 26
0.0
 36
0.0
 17
0.0
 27
1.0
 37
0.0
 76
     0
330
1B
  0
LAYOUT
  5
26
102
{ACAD_REACTORS
330
1A
102
}
330
1A
100
AcDbPlotSettings
  1

  2
none_device
  4

  6

 40
0.0
 41
0.0
 42
0.0
 43
0.0
 44
0.0
 45
0.0
 46
0.0
 47
0.0
 48
0.0
 49
0.0
140
0.0
141
0.0
142
1.0
143
1.0
 70
   688
 72
     1
 73
     0
 74
     5
  7

 75
    16
147
1.0
148
0.0
149
0.0
100
AcDbLayout
  1
Layout2
 70
     1
 71
     2
 10
0.0
 20
0.0
 11
0.0
 21
0.0
 12
0.0
 22
0.0
 32
0.0
 14
0.0
 24
0.0
 34
0.0
 15
0.0
 25
0.0
 35
0.0
146
0.0
 13
0.0
 23
0.0
 33
0.0
 16
1.0
 26
0.0
 36
0.0
 17
0.0
 27
1.0
 37
0.0
 76
     0
330
23
  0
LAYOUT
  5
22
102
{ACAD_REACTORS
330
1A
102
}
330
1A
100
AcDbPlotSettings
  1

  2
none_device
  4
Letter_(8.50_x_11.00_Inches)
  6

 40
6.35
 41
6.35
 42
6.35000508
 43
6.35000508
 44
215.9
 45
279.4
 46
0.0
 47
0.0
 48
0.0
 49
0.0
140
0.0
141
0.0
142
1.0
143
1.0
 70
  1712
 72
     1
 73
     0
 74
     0
  7

 75
     0
147
1.0
148
0.0
149
0.0
100
AcDbLayout
  1
Model
 70
     1
 71
     0
 10
0.0
 20
0.0
 11
279.4
 21
215.9
 12
0.0
 22
0.0
 32
0.0
 14
0.0
 24
0.0
 34
0.0
 15
279.4
 25
215.9
 35
0.0
146
0.0
 13
0.0
 23
0.0
 33
0.0
 16
1.0
 26
0.0
 36
0.0
 17
0.0
 27
1.0
 37
0.0
 76
     0
330
1F
331
29
  0
MLINESTYLE
  5
18
102
{ACAD_REACTORS
330
17
102
}
330
17
100
AcDbMlineStyle
  2
Standard
 70
     0
  3

 62
   256
 51
90.0
 52
90.0
 71
     2
 49
0.5
 62
   256
  6
BYLAYER
 49
-0.5
 62
   256
  6
BYLAYER
  0
ACDBPLACEHOLDER
  5
F
102
{ACAD_REACTORS
330
E
102
}
330
E
  0
SCALE
  5
48
102
{ACAD_REACTORS
330
47
102
}
330
47
100
AcDbScale
 70
     0
300
1:1
140
1.0
141
1.0
290
     1
  0
SCALE
  5
49
102
{ACAD_REACTORS
330
47
102
}
330
47
100
AcDbScale
 70
     0
300
1:2
140
1.0
141
2.0
290
     0
  0
SCALE
  5
4A
102
{ACAD_REACTORS
330
47
102
}
330
47
100
AcDbScale
 70
     0
300
1:4
140
1.0
141
4.0
290
     0
  0
SCALE
  5
4B
102
{ACAD_REACTORS
330
47
102
}
330
47
100
AcDbScale
 70
     0
300
1:5
140
1.0
141
5.0
290
     0
  0
SCALE
  5
4C
102
{ACAD_REACTORS
330
47
102
}
330
47
100
AcDbScale
 70
     0
300
1:8
140
1.0
141
8.0
290
     0
  0
SCALE
  5
4D
102
{ACAD_REACTORS
330
47
102
}
330
47
100
AcDbScale
 70
     0
300
1:10
140
1.0
141
10.0
290
     0
  0
SCALE
  5
4E
102
{ACAD_REACTORS
330
47
102
}
330
47
100
AcDbScale
 70
     0
300
1:16
140
1.0
141
16.0
290
     0
  0
SCALE
  5
4F
102
{ACAD_REACTORS
330
47
102
}
330
47
100
AcDbScale
 70
     0
300
1:20
140
1.0
141
20.0
290
     0
  0
SCALE
  5
50
102
{ACAD_REACTORS
330
47
102
}
330
47
100
AcDbScale
 70
     0
300
1:30
140
1.0
141
30.0
290
     0
  0
SCALE
  5
51
102
{ACAD_REACTORS
330
47
102
}
330
47
100
AcDbScale
 70
     0
300
1:40
140
1.0
141
40.0
290
     0
  0
SCALE
  5
52
102
{ACAD_REACTORS
330
47
102
}
330
47
100
AcDbScale
 70
     0
300
1:50
140
1.0
141
50.0
290
     0
  0
SCALE
  5
53
102
{ACAD_REACTORS
330
47
102
}
330
47
100
AcDbScale
 70
     0
300
1:100
140
1.0
141
100.0
290
     0
  0
SCALE
  5
54
102
{ACAD_REACTORS
330
47
102
}
330
47
100
AcDbScale
 70
     0
300
2:1
140
2.0
141
1.0
290
     0
  0
SCALE
  5
55
102
{ACAD_REACTORS
330
47
102
}
330
47
100
AcDbScale
 70
     0
300
4:1
140
4.0
141
1.0
290
     0
  0
SCALE
  5
56
102
{ACAD_REACTORS
330
47
102
}
330
47
100
AcDbScale
 70
     0
300
8:1
140
8.0
141
1.0
290
     0
  0
SCALE
  5
57
102
{ACAD_REACTORS
330
47
102
}
330
47
100
AcDbScale
 70
     0
300
10:1
140
10.0
141
1.0
290
     0
  0
SCALE
  5
58
102
{ACAD_REACTORS
330
47
102
}
330
47
100
AcDbScale
 70
     0
300
100:1
140
100.0
141
1.0
290
     0
  0
SCALE
  5
59
102
{ACAD_REACTORS
330
47
102
}
330
47
100
AcDbScale
 70
     0
300
1/128" = 1'-0"
140
0.0078125
141
12.0
290
     0
  0
SCALE
  5
5A
102
{ACAD_REACTORS
330
47
102
}
330
47
100
AcDbScale
 70
     0
300
1/64" = 1'-0"
140
0.015625
141
12.0
290
     0
  0
SCALE
  5
5B
102
{ACAD_REACTORS
330
47
102
}
330
47
100
AcDbScale
 70
     0
300
1/32" = 1'-0"
140
0.03125
141
12.0
290
     0
  0
SCALE
  5
5C
102
{ACAD_REACTORS
330
47
102
}
330
47
100
AcDbScale
 70
     0
300
1/16" = 1'-0"
140
0.0625
141
12.0
290
     0
  0
SCALE
  5
5D
102
{ACAD_REACTORS
330
47
102
}
330
47
100
AcDbScale
 70
     0
300
3/32" = 1'-0"
140
0.09375
141
12.0
290
     0
  0
SCALE
  5
5E
102
{ACAD_REACTORS
330
47
102
}
330
47
100
AcDbScale
 70
     0
300
1/8" = 1'-0"
140
0.125
141
12.0
290
     0
  0
SCALE
  5
5F
102
{ACAD_REACTORS
330
47
102
}
330
47
100
AcDbScale
 70
     0
300
3/16" = 1'-0"
140
0.1875
141
12.0
290
     0
  0
SCALE
  5
60
102
{ACAD_REACTORS
330
47
102
}
330
47
100
AcDbScale
 70
     0
300
1/4" = 1'-0"
140
0.25
141
12.0
290
     0
  0
SCALE
  5
61
102
{ACAD_REACTORS
330
47
102
}
330
47
100
AcDbScale
 70
     0
300
3/8" = 1'-0"
140
0.375
141
12.0
290
     0
  0
SCALE
  5
62
102
{ACAD_REACTORS
330
47
102
}
330
47
100
AcDbScale
 70
     0
300
1/2" = 1'-0"
140
0.5
141
12.0
290
     0
  0
SCALE
  5
63
102
{ACAD_REACTORS
330
47
102
}
330
47
100
AcDbScale
 70
     0
300
3/4" = 1'-0"
140
0.75
141
12.0
290
     0
  0
SCALE
  5
64
102
{ACAD_REACTORS
330
47
102
}
330
47
100
AcDbScale
 70
     0
300
1" = 1'-0"
140
1.0
141
12.0
290
     0
  0
SCALE
  5
65
102
{ACAD_REACTORS
330
47
102
}
330
47
100
AcDbScale
 70
     0
300
1-1/2" = 1'-0"
140
1.5
141
12.0
290
     0
  0
SCALE
  5
66
102
{ACAD_REACTORS
330
47
102
}
330
47
100
AcDbScale
 70
     0
300
3" = 1'-0"
140
3.0
141
12.0
290
     0
  0
SCALE
  5
67
102
{ACAD_REACTORS
330
47
102
}
330
47
100
AcDbScale
 70
     0
300
6" = 1'-0"
140
6.0
141
12.0
290
     0
  0
SCALE
  5
68
102
{ACAD_REACTORS
330
47
102
}
330
47
100
AcDbScale
 70
     0
300
1'-0" = 1'-0"
140
12.0
141
12.0
290
     0
  0
ENDSEC
  0
EOF
